What are you watching/listening or reading?

Other music, TV, films and general interest
User avatar
Innuendoes
Posts: 1253
Joined: Thu Jan 30, 2020 11:32 pm
Location: No reason to let the world take your life tonight

Re: What are you watching/listening or reading?

Post by Innuendoes »


User avatar
Innuendoes
Posts: 1253
Joined: Thu Jan 30, 2020 11:32 pm
Location: No reason to let the world take your life tonight

Re: What are you watching/listening or reading?

Post by Innuendoes »

Dm7 Dm7/G Cmaj7
e|-----------|------------------------|------------------|--------------------|
B|----15--17-|-17b18--------18r17--17-|-15--------13--15-|-15b17------15b17---|
G|-14--------|------------------------|------------------|--------------------|
D|-----------|------------------------|------------------|--------------------|
A|-----------|------------------------|------------------|--------------------|
E|-----------|------------------------|------------------|--------------------|

User avatar
Frank
Posts: 550
Joined: Fri Jan 31, 2020 9:47 pm

Re: What are you watching/listening or reading?

Post by Frank »

Innuendoes wrote:
Thu Aug 13, 2020 3:17 am
Dm7 Dm7/G Cmaj7
e|-----------|------------------------|------------------|--------------------|
B|----15--17-|-17b18--------18r17--17-|-15--------13--15-|-15b17------15b17---|
G|-14--------|------------------------|------------------|--------------------|
D|-----------|------------------------|------------------|--------------------|
A|-----------|------------------------|------------------|--------------------|
E|-----------|------------------------|------------------|--------------------|
How pretentious of you. :lol:

So you're a guitar player, huh? Nice to know other fellow musicians are on the forum.

User avatar
the milkman
Posts: 1007
Joined: Mon Feb 03, 2020 5:24 pm

Re: What are you watching/listening or reading?

Post by the milkman »

Image

User avatar
the milkman
Posts: 1007
Joined: Mon Feb 03, 2020 5:24 pm

Re: What are you watching/listening or reading?

Post by the milkman »

Image

User avatar
Leigh Burne
Posts: 102
Joined: Sun Mar 29, 2020 10:55 am
Location: England

Re: What are you watching/listening or reading?

Post by Leigh Burne »

Innuendoes wrote:
Thu Aug 13, 2020 2:34 am
Gary's one of my musical heroes. I mostly went off him after he switched from rock to blues but that song and album are superb.

User avatar
Innuendoes
Posts: 1253
Joined: Thu Jan 30, 2020 11:32 pm
Location: No reason to let the world take your life tonight

Re: What are you watching/listening or reading?

Post by Innuendoes »

Leigh Burne wrote:
Fri Aug 14, 2020 8:03 am
Innuendoes wrote:
Thu Aug 13, 2020 2:34 am
Gary's one of my musical heroes. I mostly went off him after he switched from rock to blues but that song and album are superb.
This may sound stupid to you or to everyone for that matter but the first time I saw this video - it was the entire concert, actually - but when he started playing and singing this song, I burst out crying and could not stop. I guess I am too emotional and let music and lyrics run my life but that's the way I am. He was so good. Pata, Tomoaki Ishizuka, from Japan, sounds a lot like him.



User avatar
Innuendoes
Posts: 1253
Joined: Thu Jan 30, 2020 11:32 pm
Location: No reason to let the world take your life tonight

Re: What are you watching/listening or reading?

Post by Innuendoes »


User avatar
Innuendoes
Posts: 1253
Joined: Thu Jan 30, 2020 11:32 pm
Location: No reason to let the world take your life tonight

Re: What are you watching/listening or reading?

Post by Innuendoes »


User avatar
Innuendoes
Posts: 1253
Joined: Thu Jan 30, 2020 11:32 pm
Location: No reason to let the world take your life tonight

Re: What are you watching/listening or reading?

Post by Innuendoes »


Post Reply